ISO-10303-21;
HEADER;
FILE_DESCRIPTION (( 'STEP AP214' ),
    '1' );
FILE_NAME ('02311.STEP',
    '2022-10-17T14:52:42',
    ( '' ),
    ( '' ),
    'SwSTEP 2.0',
    'SolidWorks 2021',
    '' );
FILE_SCHEMA (( 'AUTOMOTIVE_DESIGN' ));
ENDSEC;

DATA;
#1 = DIRECTION ( 'NONE',  ( 0.000000000000000000, 0.000000000000000000, 1.000000000000000000 ) ) ;
#2 = PRODUCT_CONTEXT ( 'NONE', #260, 'mechanical' ) ;
#3 = CARTESIAN_POINT ( 'NONE',  ( 0.000000000000000000, 0.000000000000000000, 0.000000000000000000 ) ) ;
#4 = PRODUCT_RELATED_PRODUCT_CATEGORY ( 'part', '', ( #6 ) ) ;
#5 = VECTOR ( 'NONE', #171, 39.37007874015748143 ) ;
#6 = PRODUCT ( '02311', '02311', '', ( #2 ) ) ;
#7 = DIRECTION ( 'NONE',  ( -9.901180574349791592E-17, 1.000000000000000000, -0.000000000000000000 ) ) ;
#8 = ORIENTED_EDGE ( 'NONE', *, *, #163, .F. ) ;
#9 = FILL_AREA_STYLE_COLOUR ( '', #67 ) ;
#10 = ORIENTED_EDGE ( 'NONE', *, *, #205, .T. ) ;
#11 = DIRECTION ( 'NONE',  ( 0.000000000000000000, -1.000000000000000000, 0.000000000000000000 ) ) ;
#12 = CARTESIAN_POINT ( 'NONE',  ( 0.5000000003824608408, 2.368051838386634689, -4.000000000000000000 ) ) ;
#13 = DIRECTION ( 'NONE',  ( -1.000000000000000000, 0.000000000000000000, -0.000000000000000000 ) ) ;
#14 = VECTOR ( 'NONE', #20, 39.37007874015748143 ) ;
#15 = FACE_OUTER_BOUND ( 'NONE', #121, .T. ) ;
#16 =( CONVERSION_BASED_UNIT ( 'INCH', #108 ) LENGTH_UNIT ( ) NAMED_UNIT ( #187 ) );
#17 = CARTESIAN_POINT ( 'NONE',  ( 0.03124999999999998959, 2.493653022441200129, 0.000000000000000000 ) ) ;
#18 = ORIENTED_EDGE ( 'NONE', *, *, #205, .F. ) ;
#19 = LINE ( 'NONE', #156, #74 ) ;
#20 = DIRECTION ( 'NONE',  ( -0.9659258262890699775, 0.2588190451025143557, -0.000000000000000000 ) ) ;
#21 = ORIENTED_EDGE ( 'NONE', *, *, #163, .T. ) ;
#22 = VECTOR ( 'NONE', #248, 39.37007874015748143 ) ;
#23 =( GEOMETRIC_REPRESENTATION_CONTEXT ( 3 ) GLOBAL_UNCERTAINTY_ASSIGNED_CONTEXT ( ( #174 ) ) GLOBAL_UNIT_ASSIGNED_CONTEXT ( ( #30, #204, #222 ) ) REPRESENTATION_CONTEXT ( 'NONE', 'WORKASPACE' ) );
#24 = ORIENTED_EDGE ( 'NONE', *, *, #81, .T. ) ;
#25 = EDGE_LOOP ( 'NONE', ( #217, #36, #21, #24 ) ) ;
#26 =( LENGTH_UNIT ( ) NAMED_UNIT ( * ) SI_UNIT ( $, .METRE. ) );
#27 = LINE ( 'NONE', #102, #5 ) ;
#28 = AXIS2_PLACEMENT_3D ( 'NONE', #93, #226, #86 ) ;
#29 = DIRECTION ( 'NONE',  ( 1.246498793228548014E-16, -1.000000000000000000, 0.000000000000000000 ) ) ;
#30 =( CONVERSION_BASED_UNIT ( 'INCH', #99 ) LENGTH_UNIT ( ) NAMED_UNIT ( #264 ) );
#31 = DIRECTION ( 'NONE',  ( 0.8660254037844414832, 0.4999999999999950595, 0.000000000000000000 ) ) ;
#32 = CARTESIAN_POINT ( 'NONE',  ( 3.073328992872296367E-16, 0.02808385416941444959, -4.000000000000000000 ) ) ;
#33 = LINE ( 'NONE', #125, #236 ) ;
#34 = CARTESIAN_POINT ( 'NONE',  ( 0.03125000000000031225, 0.02808385416941444959, -4.000000000000000000 ) ) ;
#35 = SURFACE_SIDE_STYLE ('',( #227 ) ) ;
#36 = ORIENTED_EDGE ( 'NONE', *, *, #41, .F. ) ;
#37 = CARTESIAN_POINT ( 'NONE',  ( 0.03124999999999998959, 2.493653022441200129, -4.000000000000000000 ) ) ;
#38 = DIRECTION ( 'NONE',  ( -1.000000000000000000, -1.246498793228548014E-16, 0.000000000000000000 ) ) ;
#39 = PRESENTATION_LAYER_ASSIGNMENT (  '', '', ( #220 ) ) ;
#40 = PRODUCT_DEFINITION_SHAPE ( 'NONE', 'NONE',  #110 ) ;
#41 = EDGE_CURVE ( 'NONE', #195, #145, #271, .T. ) ;
#42 = VECTOR ( 'NONE', #7, 39.37007874015748143 ) ;
#43 = VERTEX_POINT ( 'NONE', #12 ) ;
#44 = CARTESIAN_POINT ( 'NONE',  ( 0.03125000000000031225, 0.02808385416941444959, 0.000000000000000000 ) ) ;
#45 = EDGE_CURVE ( 'NONE', #43, #195, #277, .T. ) ;
#46 = DIRECTION ( 'NONE',  ( 0.8660254037844414832, 0.4999999999999951150, 0.000000000000000000 ) ) ;
#47 = ORIENTED_EDGE ( 'NONE', *, *, #238, .T. ) ;
#48 = CARTESIAN_POINT ( 'NONE',  ( 0.5000000003824610628, 0.2987167930728618082, 0.000000000000000000 ) ) ;
#49 = CARTESIAN_POINT ( 'NONE',  ( 0.5000000003824610628, 0.2987167930728618637, -4.000000000000000000 ) ) ;
#50 = ORIENTED_EDGE ( 'NONE', *, *, #81, .F. ) ;
#51 = LINE ( 'NONE', #183, #210 ) ;
#52 = VECTOR ( 'NONE', #77, 39.37007874015748143 ) ;
#53 =( NAMED_UNIT ( * ) PLANE_ANGLE_UNIT ( ) SI_UNIT ( $, .RADIAN. ) );
#54 = ORIENTED_EDGE ( 'NONE', *, *, #41, .T. ) ;
#55 = PLANE ( 'NONE',  #164 ) ;
#56 = CARTESIAN_POINT ( 'NONE',  ( 0.5000000003824608408, 2.368051838386634689, 0.000000000000000000 ) ) ;
#57 = ADVANCED_FACE ( 'NONE', ( #211 ), #55, .T. ) ;
#58 = DIRECTION ( 'NONE',  ( 1.246498793228548014E-16, -1.000000000000000000, 0.000000000000000000 ) ) ;
#59 = SURFACE_STYLE_USAGE ( .BOTH. , #246 ) ;
#60 = CARTESIAN_POINT ( 'NONE',  ( 0.03125000000000031225, 0.02808385416941444959, 0.000000000000000000 ) ) ;
#61 = VECTOR ( 'NONE', #69, 39.37007874015748143 ) ;
#62 = STYLED_ITEM ( 'NONE', ( #122 ), #200 ) ;
#63 = FILL_AREA_STYLE ('',( #9 ) ) ;
#64 = CARTESIAN_POINT ( 'NONE',  ( 0.5000000003824610628, 0.2987167930728618637, 0.000000000000000000 ) ) ;
#65 = CARTESIAN_POINT ( 'NONE',  ( 0.03125000000000031225, 0.02808385416941444959, -4.000000000000000000 ) ) ;
#66 = CARTESIAN_POINT ( 'NONE',  ( 3.073328992872296367E-16, 0.02808385416941444959, -4.000000000000000000 ) ) ;
#67 = COLOUR_RGB ( '',0.6470588235294117974, 0.6196078431372549211, 0.5882352941176470784 ) ;
#68 = CARTESIAN_POINT ( 'NONE',  ( 3.073328992872296367E-16, 0.02808385416941444959, 0.000000000000000000 ) ) ;
#69 = DIRECTION ( 'NONE',  ( 0.000000000000000000, 0.000000000000000000, 1.000000000000000000 ) ) ;
#70 = FACE_OUTER_BOUND ( 'NONE', #158, .T. ) ;
#71 = ORIENTED_EDGE ( 'NONE', *, *, #238, .F. ) ;
#72 = ORIENTED_EDGE ( 'NONE', *, *, #126, .F. ) ;
#73 = CARTESIAN_POINT ( 'NONE',  ( 0.03124999999999998959, 2.493653022441200129, -4.000000000000000000 ) ) ;
#74 = VECTOR ( 'NONE', #182, 39.37007874015748143 ) ;
#75 = ORIENTED_EDGE ( 'NONE', *, *, #269, .F. ) ;
#76 = ORIENTED_EDGE ( 'NONE', *, *, #141, .T. ) ;
#77 = DIRECTION ( 'NONE',  ( 1.000000000000000000, 0.000000000000000000, 0.000000000000000000 ) ) ;
#78 = ORIENTED_EDGE ( 'NONE', *, *, #45, .F. ) ;
#79 = UNCERTAINTY_MEASURE_WITH_UNIT (LENGTH_MEASURE( 1.000000000000000082E-05 ), #154, 'distance_accuracy_value', 'NONE');
#80 = VECTOR ( 'NONE', #58, 39.37007874015748143 ) ;
#81 = EDGE_CURVE ( 'NONE', #232, #95, #191, .T. ) ;
#82 = ORIENTED_EDGE ( 'NONE', *, *, #172, .F. ) ;
#83 = LINE ( 'NONE', #105, #94 ) ;
#84 = PLANE ( 'NONE',  #192 ) ;
#85 = PRODUCT_DEFINITION_FORMATION_WITH_SPECIFIED_SOURCE ( 'ANY', '', #6, .NOT_KNOWN. ) ;
#86 = DIRECTION ( 'NONE',  ( -9.901180574349791592E-17, 1.000000000000000000, 0.000000000000000000 ) ) ;
#87 = DIRECTION ( 'NONE',  ( 0.000000000000000000, -0.000000000000000000, -1.000000000000000000 ) ) ;
#88 = CARTESIAN_POINT ( 'NONE',  ( 0.000000000000000000, 2.493653022441200129, 0.000000000000000000 ) ) ;
#89 = DIRECTION ( 'NONE',  ( -0.9659258262890699775, 0.2588190451025143557, -0.000000000000000000 ) ) ;
#90 = CARTESIAN_POINT ( 'NONE',  ( 0.03125000000000031225, 0.02808385416941444959, -4.000000000000000000 ) ) ;
#91 = PLANE ( 'NONE',  #132 ) ;
#92 = EDGE_LOOP ( 'NONE', ( #98, #130, #18, #8, #78, #123 ) ) ;
#93 = CARTESIAN_POINT ( 'NONE',  ( 0.5000000003824608408, 2.368051838386634689, -4.000000000000000000 ) ) ;
#94 = VECTOR ( 'NONE', #29, 39.37007874015748143 ) ;
#95 = VERTEX_POINT ( 'NONE', #247 ) ;
#96 = VERTEX_POINT ( 'NONE', #48 ) ;
#97 = AXIS2_PLACEMENT_3D ( 'NONE', #34, #127, #31 ) ;
#98 = ORIENTED_EDGE ( 'NONE', *, *, #276, .F. ) ;
#99 = LENGTH_MEASURE_WITH_UNIT ( LENGTH_MEASURE( 0.02539999999999999897 ), #26 );
#100 = APPLICATION_CONTEXT ( 'automotive_design' ) ;
#101 = VERTEX_POINT ( 'NONE', #155 ) ;
#102 = CARTESIAN_POINT ( 'NONE',  ( 0.5000000003824608408, 2.368051838386634689, -4.000000000000000000 ) ) ;
#103 = MECHANICAL_DESIGN_GEOMETRIC_PRESENTATION_REPRESENTATION (  '', ( #62 ), #23 ) ;
#104 = FACE_OUTER_BOUND ( 'NONE', #152, .T. ) ;
#105 = CARTESIAN_POINT ( 'NONE',  ( 0.000000000000000000, 2.493653022441200129, -4.000000000000000000 ) ) ;
#106 =( LENGTH_UNIT ( ) NAMED_UNIT ( * ) SI_UNIT ( $, .METRE. ) );
#107 = CARTESIAN_POINT ( 'NONE',  ( 3.073328992872296367E-16, 0.02808385416941444959, -4.000000000000000000 ) ) ;
#108 = LENGTH_MEASURE_WITH_UNIT ( LENGTH_MEASURE( 0.02539999999999999897 ), #212 );
#109 = FACE_OUTER_BOUND ( 'NONE', #229, .T. ) ;
#110 = PRODUCT_DEFINITION ( 'UNKNOWN', '', #85, #193 ) ;
#111 = APPLICATION_PROTOCOL_DEFINITION ( 'draft international standard', 'automotive_design', 1998, #260 ) ;
#112 = LINE ( 'NONE', #66, #231 ) ;
#113 = DIRECTION ( 'NONE',  ( 0.000000000000000000, 0.000000000000000000, 1.000000000000000000 ) ) ;
#114 = LENGTH_MEASURE_WITH_UNIT ( LENGTH_MEASURE( 0.02539999999999999897 ), #106 );
#115 = EDGE_CURVE ( 'NONE', #145, #95, #124, .T. ) ;
#116 = EDGE_LOOP ( 'NONE', ( #151, #72, #224, #178 ) ) ;
#117 = DIRECTION ( 'NONE',  ( 1.246498793228548014E-16, -1.000000000000000000, 0.000000000000000000 ) ) ;
#118 = UNCERTAINTY_MEASURE_WITH_UNIT (LENGTH_MEASURE( 1.000000000000000082E-05 ), #16, 'distance_accuracy_value', 'NONE');
#119 = VECTOR ( 'NONE', #113, 39.37007874015748143 ) ;
#120 = CLOSED_SHELL ( 'NONE', ( #143, #150, #167, #133, #245, #255, #57, #250 ) ) ;
#121 = EDGE_LOOP ( 'NONE', ( #82, #241, #76, #137 ) ) ;
#122 = PRESENTATION_STYLE_ASSIGNMENT (( #59 ) ) ;
#123 = ORIENTED_EDGE ( 'NONE', *, *, #218, .F. ) ;
#124 = LINE ( 'NONE', #88, #201 ) ;
#125 = CARTESIAN_POINT ( 'NONE',  ( 0.03125000000000031225, 0.02808385416941444959, -4.000000000000000000 ) ) ;
#126 = EDGE_CURVE ( 'NONE', #273, #235, #128, .T. ) ;
#127 = DIRECTION ( 'NONE',  ( 0.4999999999999950595, -0.8660254037844414832, 0.000000000000000000 ) ) ;
#128 = LINE ( 'NONE', #90, #61 ) ;
#129 = FILL_AREA_STYLE ('',( #253 ) ) ;
#130 = ORIENTED_EDGE ( 'NONE', *, *, #141, .F. ) ;
#131 = LINE ( 'NONE', #230, #206 ) ;
#132 = AXIS2_PLACEMENT_3D ( 'NONE', #188, #11, #87 ) ;
#133 = ADVANCED_FACE ( 'NONE', ( #252 ), #265, .T. ) ;
#134 = PRESENTATION_LAYER_ASSIGNMENT (  '', '', ( #62 ) ) ;
#135 = FACE_OUTER_BOUND ( 'NONE', #228, .T. ) ;
#136 = VERTEX_POINT ( 'NONE', #32 ) ;
#137 = ORIENTED_EDGE ( 'NONE', *, *, #126, .T. ) ;
#138 = CARTESIAN_POINT ( 'NONE',  ( 0.03124999999999998959, 2.493653022441200129, -4.000000000000000000 ) ) ;
#139 =( GEOMETRIC_REPRESENTATION_CONTEXT ( 3 ) GLOBAL_UNCERTAINTY_ASSIGNED_CONTEXT ( ( #79 ) ) GLOBAL_UNIT_ASSIGNED_CONTEXT ( ( #154, #213, #149 ) ) REPRESENTATION_CONTEXT ( 'NONE', 'WORKASPACE' ) );
#140 = CARTESIAN_POINT ( 'NONE',  ( 0.000000000000000000, 2.493653022441200129, -4.000000000000000000 ) ) ;
#141 = EDGE_CURVE ( 'NONE', #136, #273, #112, .T. ) ;
#142 = ORIENTED_EDGE ( 'NONE', *, *, #198, .T. ) ;
#143 = ADVANCED_FACE ( 'NONE', ( #214 ), #160, .T. ) ;
#144 = EDGE_CURVE ( 'NONE', #136, #258, #184, .T. ) ;
#145 = VERTEX_POINT ( 'NONE', #17 ) ;
#146 = CARTESIAN_POINT ( 'NONE',  ( 0.000000000000000000, 2.493653022441200129, -4.000000000000000000 ) ) ;
#147 = AXIS2_PLACEMENT_3D ( 'NONE', #170, #243, #223 ) ;
#148 = MECHANICAL_DESIGN_GEOMETRIC_PRESENTATION_REPRESENTATION (  '', ( #220 ), #270 ) ;
#149 =( NAMED_UNIT ( * ) SI_UNIT ( $, .STERADIAN. ) SOLID_ANGLE_UNIT ( ) );
#150 = ADVANCED_FACE ( 'NONE', ( #15 ), #91, .T. ) ;
#151 = ORIENTED_EDGE ( 'NONE', *, *, #225, .F. ) ;
#152 = EDGE_LOOP ( 'NONE', ( #153, #71, #267, #54 ) ) ;
#153 = ORIENTED_EDGE ( 'NONE', *, *, #259, .F. ) ;
#154 =( CONVERSION_BASED_UNIT ( 'INCH', #114 ) LENGTH_UNIT ( ) NAMED_UNIT ( #254 ) );
#155 = CARTESIAN_POINT ( 'NONE',  ( 0.5000000003824610628, 0.2987167930728618082, -4.000000000000000000 ) ) ;
#156 = CARTESIAN_POINT ( 'NONE',  ( 0.5000000003824608408, 2.368051838386634689, 0.000000000000000000 ) ) ;
#157 = DIRECTION ( 'NONE',  ( -1.000000000000000000, 0.000000000000000000, -0.000000000000000000 ) ) ;
#158 = EDGE_LOOP ( 'NONE', ( #181, #202, #165, #249, #142, #189 ) ) ;
#159 = SHAPE_DEFINITION_REPRESENTATION ( #40, #215 ) ;
#160 = PLANE ( 'NONE',  #97 ) ;
#161 = DIRECTION ( 'NONE',  ( 0.000000000000000000, 0.000000000000000000, 1.000000000000000000 ) ) ;
#162 = LINE ( 'NONE', #237, #80 ) ;
#163 = EDGE_CURVE ( 'NONE', #195, #232, #180, .T. ) ;
#164 = AXIS2_PLACEMENT_3D ( 'NONE', #49, #185, #157 ) ;
#165 = ORIENTED_EDGE ( 'NONE', *, *, #259, .T. ) ;
#166 = PLANE ( 'NONE',  #175 ) ;
#167 = ADVANCED_FACE ( 'NONE', ( #109 ), #166, .T. ) ;
#168 = VERTEX_POINT ( 'NONE', #56 ) ;
#169 = AXIS2_PLACEMENT_3D ( 'NONE', #3, #161, #257 ) ;
#170 = CARTESIAN_POINT ( 'NONE',  ( 0.000000000000000000, 2.493653022441200129, -4.000000000000000000 ) ) ;
#171 = DIRECTION ( 'NONE',  ( 0.000000000000000000, 0.000000000000000000, 1.000000000000000000 ) ) ;
#172 = EDGE_CURVE ( 'NONE', #258, #235, #239, .T. ) ;
#173 = CARTESIAN_POINT ( 'NONE',  ( 0.03124999999999998959, 2.493653022441200129, -4.000000000000000000 ) ) ;
#174 = UNCERTAINTY_MEASURE_WITH_UNIT (LENGTH_MEASURE( 1.000000000000000082E-05 ), #30, 'distance_accuracy_value', 'NONE');
#175 = AXIS2_PLACEMENT_3D ( 'NONE', #140, #38, #117 ) ;
#176 = AXIS2_PLACEMENT_3D ( 'NONE', #64, #208, #13 ) ;
#177 = CARTESIAN_POINT ( 'NONE',  ( 0.5000000003824608408, 2.368051838386634689, -4.000000000000000000 ) ) ;
#178 = ORIENTED_EDGE ( 'NONE', *, *, #269, .T. ) ;
#179 = DIRECTION ( 'NONE',  ( -0.9659258262890699775, 0.2588190451025143002, 0.000000000000000000 ) ) ;
#180 = LINE ( 'NONE', #266, #22 ) ;
#181 = ORIENTED_EDGE ( 'NONE', *, *, #225, .T. ) ;
#182 = DIRECTION ( 'NONE',  ( -9.901180574349791592E-17, 1.000000000000000000, -0.000000000000000000 ) ) ;
#183 = CARTESIAN_POINT ( 'NONE',  ( 0.03124999999999998959, 2.493653022441200129, 0.000000000000000000 ) ) ;
#184 = LINE ( 'NONE', #107, #263 ) ;
#185 = DIRECTION ( 'NONE',  ( 0.000000000000000000, 0.000000000000000000, -1.000000000000000000 ) ) ;
#186 = PLANE ( 'NONE',  #176 ) ;
#187 = DIMENSIONAL_EXPONENTS ( 1.000000000000000000, 0.000000000000000000, 0.000000000000000000, 0.000000000000000000, 0.000000000000000000, 0.000000000000000000, 0.000000000000000000 ) ;
#188 = CARTESIAN_POINT ( 'NONE',  ( 3.073328992872296367E-16, 0.02808385416941444959, -4.000000000000000000 ) ) ;
#189 = ORIENTED_EDGE ( 'NONE', *, *, #172, .T. ) ;
#190 =( NAMED_UNIT ( * ) SI_UNIT ( $, .STERADIAN. ) SOLID_ANGLE_UNIT ( ) );
#191 = LINE ( 'NONE', #274, #196 ) ;
#192 = AXIS2_PLACEMENT_3D ( 'NONE', #173, #244, #179 ) ;
#193 = PRODUCT_DEFINITION_CONTEXT ( 'detailed design', #100, 'design' ) ;
#194 = ORIENTED_EDGE ( 'NONE', *, *, #218, .T. ) ;
#195 = VERTEX_POINT ( 'NONE', #138 ) ;
#196 = VECTOR ( 'NONE', #1, 39.37007874015748143 ) ;
#197 = VECTOR ( 'NONE', #242, 39.37007874015748143 ) ;
#198 = EDGE_CURVE ( 'NONE', #95, #258, #162, .T. ) ;
#199 = LINE ( 'NONE', #177, #42 ) ;
#200 = MANIFOLD_SOLID_BREP ( 'Boss-Extrude1', #120 ) ;
#201 = VECTOR ( 'NONE', #268, 39.37007874015748143 ) ;
#202 = ORIENTED_EDGE ( 'NONE', *, *, #261, .T. ) ;
#203 = SURFACE_STYLE_FILL_AREA ( #63 ) ;
#204 =( NAMED_UNIT ( * ) PLANE_ANGLE_UNIT ( ) SI_UNIT ( $, .RADIAN. ) );
#205 = EDGE_CURVE ( 'NONE', #232, #136, #83, .T. ) ;
#206 = VECTOR ( 'NONE', #272, 39.37007874015748143 ) ;
#207 = ORIENTED_EDGE ( 'NONE', *, *, #144, .T. ) ;
#208 = DIRECTION ( 'NONE',  ( 0.000000000000000000, 0.000000000000000000, -1.000000000000000000 ) ) ;
#209 = SURFACE_STYLE_USAGE ( .BOTH. , #35 ) ;
#210 = VECTOR ( 'NONE', #89, 39.37007874015748143 ) ;
#211 = FACE_OUTER_BOUND ( 'NONE', #92, .T. ) ;
#212 =( LENGTH_UNIT ( ) NAMED_UNIT ( * ) SI_UNIT ( $, .METRE. ) );
#213 =( NAMED_UNIT ( * ) PLANE_ANGLE_UNIT ( ) SI_UNIT ( $, .RADIAN. ) );
#214 = FACE_OUTER_BOUND ( 'NONE', #116, .T. ) ;
#215 = ADVANCED_BREP_SHAPE_REPRESENTATION ( '02311', ( #200, #169 ), #139 ) ;
#216 = CARTESIAN_POINT ( 'NONE',  ( 3.073328992872296367E-16, 0.02808385416941444959, 0.000000000000000000 ) ) ;
#217 = ORIENTED_EDGE ( 'NONE', *, *, #115, .F. ) ;
#218 = EDGE_CURVE ( 'NONE', #101, #43, #199, .T. ) ;
#219 = APPLICATION_PROTOCOL_DEFINITION ( 'draft international standard', 'automotive_design', 1998, #100 ) ;
#220 = STYLED_ITEM ( 'NONE', ( #275 ), #215 ) ;
#221 = ORIENTED_EDGE ( 'NONE', *, *, #261, .F. ) ;
#222 =( NAMED_UNIT ( * ) SI_UNIT ( $, .STERADIAN. ) SOLID_ANGLE_UNIT ( ) );
#223 = DIRECTION ( 'NONE',  ( 0.000000000000000000, -0.000000000000000000, 1.000000000000000000 ) ) ;
#224 = ORIENTED_EDGE ( 'NONE', *, *, #276, .T. ) ;
#225 = EDGE_CURVE ( 'NONE', #235, #96, #262, .T. ) ;
#226 = DIRECTION ( 'NONE',  ( 1.000000000000000000, 9.901180574349791592E-17, -0.000000000000000000 ) ) ;
#227 = SURFACE_STYLE_FILL_AREA ( #129 ) ;
#228 = EDGE_LOOP ( 'NONE', ( #221, #75, #194, #47 ) ) ;
#229 = EDGE_LOOP ( 'NONE', ( #234, #50, #10, #207 ) ) ;
#230 = CARTESIAN_POINT ( 'NONE',  ( 0.5000000003824610628, 0.2987167930728618082, -4.000000000000000000 ) ) ;
#231 = VECTOR ( 'NONE', #256, 39.37007874015748143 ) ;
#232 = VERTEX_POINT ( 'NONE', #146 ) ;
#233 = PLANE ( 'NONE',  #28 ) ;
#234 = ORIENTED_EDGE ( 'NONE', *, *, #198, .F. ) ;
#235 = VERTEX_POINT ( 'NONE', #44 ) ;
#236 = VECTOR ( 'NONE', #46, 39.37007874015748143 ) ;
#237 = CARTESIAN_POINT ( 'NONE',  ( 0.000000000000000000, 2.493653022441200129, 0.000000000000000000 ) ) ;
#238 = EDGE_CURVE ( 'NONE', #43, #168, #27, .T. ) ;
#239 = LINE ( 'NONE', #216, #52 ) ;
#240 = COLOUR_RGB ( '',0.6470588235294117974, 0.6196078431372549211, 0.5882352941176470784 ) ;
#241 = ORIENTED_EDGE ( 'NONE', *, *, #144, .F. ) ;
#242 = DIRECTION ( 'NONE',  ( 0.8660254037844414832, 0.4999999999999951150, 0.000000000000000000 ) ) ;
#243 = DIRECTION ( 'NONE',  ( 0.000000000000000000, 1.000000000000000000, 0.000000000000000000 ) ) ;
#244 = DIRECTION ( 'NONE',  ( 0.2588190451025143002, 0.9659258262890699775, -0.000000000000000000 ) ) ;
#245 = ADVANCED_FACE ( 'NONE', ( #104 ), #84, .T. ) ;
#246 = SURFACE_SIDE_STYLE ('',( #203 ) ) ;
#247 = CARTESIAN_POINT ( 'NONE',  ( 0.000000000000000000, 2.493653022441200129, 0.000000000000000000 ) ) ;
#248 = DIRECTION ( 'NONE',  ( -1.000000000000000000, -0.000000000000000000, -0.000000000000000000 ) ) ;
#249 = ORIENTED_EDGE ( 'NONE', *, *, #115, .T. ) ;
#250 = ADVANCED_FACE ( 'NONE', ( #70 ), #186, .F. ) ;
#251 = DIRECTION ( 'NONE',  ( 0.000000000000000000, 0.000000000000000000, 1.000000000000000000 ) ) ;
#252 = FACE_OUTER_BOUND ( 'NONE', #25, .T. ) ;
#253 = FILL_AREA_STYLE_COLOUR ( '', #240 ) ;
#254 = DIMENSIONAL_EXPONENTS ( 1.000000000000000000, 0.000000000000000000, 0.000000000000000000, 0.000000000000000000, 0.000000000000000000, 0.000000000000000000, 0.000000000000000000 ) ;
#255 = ADVANCED_FACE ( 'NONE', ( #135 ), #233, .T. ) ;
#256 = DIRECTION ( 'NONE',  ( 1.000000000000000000, 0.000000000000000000, 0.000000000000000000 ) ) ;
#257 = DIRECTION ( 'NONE',  ( 1.000000000000000000, 0.000000000000000000, 0.000000000000000000 ) ) ;
#258 = VERTEX_POINT ( 'NONE', #68 ) ;
#259 = EDGE_CURVE ( 'NONE', #168, #145, #51, .T. ) ;
#260 = APPLICATION_CONTEXT ( 'automotive_design' ) ;
#261 = EDGE_CURVE ( 'NONE', #96, #168, #19, .T. ) ;
#262 = LINE ( 'NONE', #60, #197 ) ;
#263 = VECTOR ( 'NONE', #251, 39.37007874015748143 ) ;
#264 = DIMENSIONAL_EXPONENTS ( 1.000000000000000000, 0.000000000000000000, 0.000000000000000000, 0.000000000000000000, 0.000000000000000000, 0.000000000000000000, 0.000000000000000000 ) ;
#265 = PLANE ( 'NONE',  #147 ) ;
#266 = CARTESIAN_POINT ( 'NONE',  ( 0.000000000000000000, 2.493653022441200129, -4.000000000000000000 ) ) ;
#267 = ORIENTED_EDGE ( 'NONE', *, *, #45, .T. ) ;
#268 = DIRECTION ( 'NONE',  ( -1.000000000000000000, -0.000000000000000000, -0.000000000000000000 ) ) ;
#269 = EDGE_CURVE ( 'NONE', #101, #96, #131, .T. ) ;
#270 =( GEOMETRIC_REPRESENTATION_CONTEXT ( 3 ) GLOBAL_UNCERTAINTY_ASSIGNED_CONTEXT ( ( #118 ) ) GLOBAL_UNIT_ASSIGNED_CONTEXT ( ( #16, #53, #190 ) ) REPRESENTATION_CONTEXT ( 'NONE', 'WORKASPACE' ) );
#271 = LINE ( 'NONE', #37, #119 ) ;
#272 = DIRECTION ( 'NONE',  ( 0.000000000000000000, 0.000000000000000000, 1.000000000000000000 ) ) ;
#273 = VERTEX_POINT ( 'NONE', #65 ) ;
#274 = CARTESIAN_POINT ( 'NONE',  ( 0.000000000000000000, 2.493653022441200129, -4.000000000000000000 ) ) ;
#275 = PRESENTATION_STYLE_ASSIGNMENT (( #209 ) ) ;
#276 = EDGE_CURVE ( 'NONE', #273, #101, #33, .T. ) ;
#277 = LINE ( 'NONE', #73, #14 ) ;
ENDSEC;
END-ISO-10303-21;
