ISO-10303-21;
HEADER;
FILE_DESCRIPTION (( 'STEP AP214' ),
    '1' );
FILE_NAME ('02379.STEP',
    '2015-12-08T19:10:28',
    ( 'cw' ),
    ( 'Hewlett-Packard Company' ),
    'SwSTEP 2.0',
    'SolidWorks 2015',
    '' );
FILE_SCHEMA (( 'AUTOMOTIVE_DESIGN' ));
ENDSEC;

DATA;
#1 = ORIENTED_EDGE ( 'NONE', *, *, #70, .F. ) ;
#2 = VECTOR ( 'NONE', #228, 39.37007874015748100 ) ;
#3 = ADVANCED_FACE ( 'NONE', ( #132 ), #52, .T. ) ;
#4 = LINE ( 'NONE', #198, #192 ) ;
#5 =( CONVERSION_BASED_UNIT ( 'INCH', #242 ) LENGTH_UNIT ( ) NAMED_UNIT ( #174 ) );
#6 = LINE ( 'NONE', #200, #35 ) ;
#7 = DIRECTION ( 'NONE',  ( -1.000000000000000000, -0.0000000000000000000, -0.0000000000000000000 ) ) ;
#8 = CARTESIAN_POINT ( 'NONE',  ( 3.862503206164547000E-009, 2.473795714729885000, -10.00000000000000000 ) ) ;
#9 = VERTEX_POINT ( 'NONE', #238 ) ;
#10 = ADVANCED_FACE ( 'NONE', ( #80 ), #129, .T. ) ;
#11 = FACE_OUTER_BOUND ( 'NONE', #88, .T. ) ;
#12 = EDGE_CURVE ( 'NONE', #269, #121, #41, .T. ) ;
#13 = ORIENTED_EDGE ( 'NONE', *, *, #61, .T. ) ;
#14 = FACE_OUTER_BOUND ( 'NONE', #153, .T. ) ;
#15 = VERTEX_POINT ( 'NONE', #77 ) ;
#16 = CARTESIAN_POINT ( 'NONE',  ( 0.03100000386250312300, -1.959870872116168000E-009, -10.00000000000000000 ) ) ;
#17 = ORIENTED_EDGE ( 'NONE', *, *, #256, .F. ) ;
#18 = DIRECTION ( 'NONE',  ( 1.000000000000000000, 3.053113322842609200E-015, 0.0000000000000000000 ) ) ;
#19 = ORIENTED_EDGE ( 'NONE', *, *, #118, .F. ) ;
#20 = CARTESIAN_POINT ( 'NONE',  ( 0.6250000038625032100, 2.314633894425798000, -10.00000000000000000 ) ) ;
#21 = AXIS2_PLACEMENT_3D ( 'NONE', #178, #133, #208 ) ;
#22 = EDGE_LOOP ( 'NONE', ( #248, #160, #122, #27, #98, #194 ) ) ;
#23 = CARTESIAN_POINT ( 'NONE',  ( 3.862503480811043600E-009, -1.959870966762681200E-009, -10.00000000000000000 ) ) ;
#24 =( LENGTH_UNIT ( ) NAMED_UNIT ( * ) SI_UNIT ( $, .METRE. ) );
#25 = MECHANICAL_DESIGN_GEOMETRIC_PRESENTATION_REPRESENTATION (  '', ( #263 ), #207 ) ;
#26 = CARTESIAN_POINT ( 'NONE',  ( 0.03100000386250312300, -1.959870872116168000E-009, 0.0000000000000000000 ) ) ;
#27 = ORIENTED_EDGE ( 'NONE', *, *, #78, .F. ) ;
#28 = CARTESIAN_POINT ( 'NONE',  ( 3.862503480811043600E-009, -1.959870966762681200E-009, 0.0000000000000000000 ) ) ;
#29 = CARTESIAN_POINT ( 'NONE',  ( 0.0000000000000000000, 0.0000000000000000000, 0.0000000000000000000 ) ) ;
#30 = DIRECTION ( 'NONE',  ( -0.9659258262890679800, 0.2588190451025214100, 0.0000000000000000000 ) ) ;
#31 = CARTESIAN_POINT ( 'NONE',  ( 3.862503480811043600E-009, -1.959870966762681200E-009, 0.0000000000000000000 ) ) ;
#32 = CARTESIAN_POINT ( 'NONE',  ( 0.03100000386250312300, -1.959870872116168000E-009, 0.0000000000000000000 ) ) ;
#33 = EDGE_CURVE ( 'NONE', #121, #81, #46, .T. ) ;
#34 = STYLED_ITEM ( 'NONE', ( #197 ), #191 ) ;
#35 = VECTOR ( 'NONE', #170, 39.37007874015748100 ) ;
#36 = ORIENTED_EDGE ( 'NONE', *, *, #96, .T. ) ;
#37 = AXIS2_PLACEMENT_3D ( 'NONE', #63, #86, #222 ) ;
#38 = ORIENTED_EDGE ( 'NONE', *, *, #12, .F. ) ;
#39 = CARTESIAN_POINT ( 'NONE',  ( 0.03100000386250312300, -1.959870872116168000E-009, -10.00000000000000000 ) ) ;
#40 = LINE ( 'NONE', #254, #69 ) ;
#41 = LINE ( 'NONE', #251, #162 ) ;
#42 = EDGE_CURVE ( 'NONE', #67, #196, #213, .T. ) ;
#43 = APPLICATION_CONTEXT ( 'automotive_design' ) ;
#44 = EDGE_CURVE ( 'NONE', #9, #67, #205, .T. ) ;
#45 = PRODUCT_DEFINITION_CONTEXT ( 'detailed design', #209, 'design' ) ;
#46 = LINE ( 'NONE', #28, #2 ) ;
#47 = DIRECTION ( 'NONE',  ( -0.0000000000000000000, 0.0000000000000000000, -1.000000000000000000 ) ) ;
#48 = ORIENTED_EDGE ( 'NONE', *, *, #99, .T. ) ;
#49 = COLOUR_RGB ( '',0.6470588235294118000, 0.6196078431372549200, 0.5882352941176470800 ) ;
#50 = EDGE_CURVE ( 'NONE', #67, #186, #147, .T. ) ;
#51 = VECTOR ( 'NONE', #249, 39.37007874015748100 ) ;
#52 = PLANE ( 'NONE',  #212 ) ;
#53 = APPLICATION_PROTOCOL_DEFINITION ( 'draft international standard', 'automotive_design', 1998, #209 ) ;
#54 = DIRECTION ( 'NONE',  ( -0.0000000000000000000, 1.000000000000000000, -0.0000000000000000000 ) ) ;
#55 = CARTESIAN_POINT ( 'NONE',  ( 0.6250000038625032100, 2.314633894425798000, 0.0000000000000000000 ) ) ;
#56 = CARTESIAN_POINT ( 'NONE',  ( 0.03100000386250378900, 2.473795714729885000, -10.00000000000000000 ) ) ;
#57 = DIRECTION ( 'NONE',  ( 0.0000000000000000000, 0.0000000000000000000, -1.000000000000000000 ) ) ;
#58 = ORIENTED_EDGE ( 'NONE', *, *, #44, .T. ) ;
#59 = ORIENTED_EDGE ( 'NONE', *, *, #33, .T. ) ;
#60 = ORIENTED_EDGE ( 'NONE', *, *, #42, .F. ) ;
#61 = EDGE_CURVE ( 'NONE', #257, #15, #6, .T. ) ;
#62 =( GEOMETRIC_REPRESENTATION_CONTEXT ( 3 ) GLOBAL_UNCERTAINTY_ASSIGNED_CONTEXT ( ( #271 ) ) GLOBAL_UNIT_ASSIGNED_CONTEXT ( ( #5, #260, #148 ) ) REPRESENTATION_CONTEXT ( 'NONE', 'WORKASPACE' ) );
#63 = CARTESIAN_POINT ( 'NONE',  ( 0.03100000386250312300, -1.959870872116168000E-009, -10.00000000000000000 ) ) ;
#64 = CARTESIAN_POINT ( 'NONE',  ( 3.862503206164547000E-009, 2.473795714729885000, -10.00000000000000000 ) ) ;
#65 = CARTESIAN_POINT ( 'NONE',  ( 0.6250000038625032100, 2.473795714729885000, -10.00000000000000000 ) ) ;
#66 = ORIENTED_EDGE ( 'NONE', *, *, #144, .T. ) ;
#67 = VERTEX_POINT ( 'NONE', #115 ) ;
#68 = DIMENSIONAL_EXPONENTS ( 1.000000000000000000, 0.0000000000000000000, 0.0000000000000000000, 0.0000000000000000000, 0.0000000000000000000, 0.0000000000000000000, 0.0000000000000000000 ) ;
#69 = VECTOR ( 'NONE', #189, 39.37007874015748100 ) ;
#70 = EDGE_CURVE ( 'NONE', #81, #130, #204, .T. ) ;
#71 = DIRECTION ( 'NONE',  ( 0.0000000000000000000, 0.0000000000000000000, 1.000000000000000000 ) ) ;
#72 = CARTESIAN_POINT ( 'NONE',  ( 0.6250000038625032100, 0.3429460579387679800, 0.0000000000000000000 ) ) ;
#73 = VECTOR ( 'NONE', #210, 39.37007874015748100 ) ;
#74 =( NAMED_UNIT ( * ) SI_UNIT ( $, .STERADIAN. ) SOLID_ANGLE_UNIT ( ) );
#75 = LENGTH_MEASURE_WITH_UNIT ( LENGTH_MEASURE( 0.02539999999999999900 ), #24 );
#76 = CARTESIAN_POINT ( 'NONE',  ( 0.03100000386250378900, 2.473795714729885000, 0.0000000000000000000 ) ) ;
#77 = CARTESIAN_POINT ( 'NONE',  ( 3.862503206164547000E-009, 2.473795714729885000, 0.0000000000000000000 ) ) ;
#78 = EDGE_CURVE ( 'NONE', #113, #9, #136, .T. ) ;
#79 =( GEOMETRIC_REPRESENTATION_CONTEXT ( 3 ) GLOBAL_UNCERTAINTY_ASSIGNED_CONTEXT ( ( #114 ) ) GLOBAL_UNIT_ASSIGNED_CONTEXT ( ( #112, #268, #74 ) ) REPRESENTATION_CONTEXT ( 'NONE', 'WORKASPACE' ) );
#80 = FACE_OUTER_BOUND ( 'NONE', #22, .T. ) ;
#81 = VERTEX_POINT ( 'NONE', #32 ) ;
#82 = FACE_OUTER_BOUND ( 'NONE', #216, .T. ) ;
#83 = VERTEX_POINT ( 'NONE', #64 ) ;
#84 = ADVANCED_FACE ( 'NONE', ( #11 ), #154, .T. ) ;
#85 = SURFACE_SIDE_STYLE ('',( #230 ) ) ;
#86 = DIRECTION ( 'NONE',  ( 0.5000000000000012200, -0.8660254037844379300, 0.0000000000000000000 ) ) ;
#87 = DIRECTION ( 'NONE',  ( 1.000000000000000000, 3.053113322842610000E-015, 0.0000000000000000000 ) ) ;
#88 = EDGE_LOOP ( 'NONE', ( #218, #38, #155, #110 ) ) ;
#89 = PRODUCT ( '02379', '02379', '', ( #246 ) ) ;
#90 =( NAMED_UNIT ( * ) PLANE_ANGLE_UNIT ( ) SI_UNIT ( $, .RADIAN. ) );
#91 = CARTESIAN_POINT ( 'NONE',  ( 0.6250000038625032100, 2.314633894425798000, 0.0000000000000000000 ) ) ;
#92 =( NAMED_UNIT ( * ) SI_UNIT ( $, .STERADIAN. ) SOLID_ANGLE_UNIT ( ) );
#93 = ORIENTED_EDGE ( 'NONE', *, *, #78, .T. ) ;
#94 = DIRECTION ( 'NONE',  ( -0.9659258262890682000, 0.2588190451025214600, -0.0000000000000000000 ) ) ;
#95 = EDGE_LOOP ( 'NONE', ( #267, #19, #58, #203 ) ) ;
#96 = EDGE_CURVE ( 'NONE', #186, #257, #116, .T. ) ;
#97 = SHAPE_DEFINITION_REPRESENTATION ( #264, #276 ) ;
#98 = ORIENTED_EDGE ( 'NONE', *, *, #193, .F. ) ;
#99 = EDGE_CURVE ( 'NONE', #15, #121, #183, .T. ) ;
#100 = ORIENTED_EDGE ( 'NONE', *, *, #70, .T. ) ;
#101 =( LENGTH_UNIT ( ) NAMED_UNIT ( * ) SI_UNIT ( $, .METRE. ) );
#102 = DIRECTION ( 'NONE',  ( 0.0000000000000000000, 0.0000000000000000000, 1.000000000000000000 ) ) ;
#103 = SURFACE_STYLE_FILL_AREA ( #159 ) ;
#104 = PLANE ( 'NONE',  #37 ) ;
#105 = DIRECTION ( 'NONE',  ( 0.2588190451025214600, 0.9659258262890680900, -0.0000000000000000000 ) ) ;
#106 = AXIS2_PLACEMENT_3D ( 'NONE', #134, #138, #237 ) ;
#107 = ADVANCED_FACE ( 'NONE', ( #173 ), #167, .T. ) ;
#108 = DIRECTION ( 'NONE',  ( 0.8660254037844379300, 0.5000000000000012200, 0.0000000000000000000 ) ) ;
#109 = DIMENSIONAL_EXPONENTS ( 1.000000000000000000, 0.0000000000000000000, 0.0000000000000000000, 0.0000000000000000000, 0.0000000000000000000, 0.0000000000000000000, 0.0000000000000000000 ) ;
#110 = ORIENTED_EDGE ( 'NONE', *, *, #256, .T. ) ;
#111 = FILL_AREA_STYLE_COLOUR ( '', #185 ) ;
#112 =( CONVERSION_BASED_UNIT ( 'INCH', #75 ) LENGTH_UNIT ( ) NAMED_UNIT ( #109 ) );
#113 = VERTEX_POINT ( 'NONE', #16 ) ;
#114 = UNCERTAINTY_MEASURE_WITH_UNIT (LENGTH_MEASURE( 1.000000000000000100E-005 ), #112, 'distance_accuracy_value', 'NONE');
#115 = CARTESIAN_POINT ( 'NONE',  ( 0.6250000038625032100, 2.314633894425798000, -10.00000000000000000 ) ) ;
#116 = LINE ( 'NONE', #56, #241 ) ;
#117 = DIRECTION ( 'NONE',  ( 3.053113322842610000E-015, -1.000000000000000000, 0.0000000000000000000 ) ) ;
#118 = EDGE_CURVE ( 'NONE', #9, #130, #40, .T. ) ;
#119 = FACE_OUTER_BOUND ( 'NONE', #266, .T. ) ;
#120 = VECTOR ( 'NONE', #131, 39.37007874015747400 ) ;
#121 = VERTEX_POINT ( 'NONE', #31 ) ;
#122 = ORIENTED_EDGE ( 'NONE', *, *, #44, .F. ) ;
#123 = LINE ( 'NONE', #215, #158 ) ;
#124 = DIRECTION ( 'NONE',  ( 1.110223023867165500E-016, -1.000000000000000000, 0.0000000000000000000 ) ) ;
#125 = FILL_AREA_STYLE ('',( #111 ) ) ;
#126 = CARTESIAN_POINT ( 'NONE',  ( 3.862503206164547000E-009, 2.473795714729885000, -10.00000000000000000 ) ) ;
#127 = EDGE_CURVE ( 'NONE', #196, #257, #195, .T. ) ;
#128 = CARTESIAN_POINT ( 'NONE',  ( 3.862503480811043600E-009, -1.959870966762681200E-009, -10.00000000000000000 ) ) ;
#129 = PLANE ( 'NONE',  #175 ) ;
#130 = VERTEX_POINT ( 'NONE', #72 ) ;
#131 = DIRECTION ( 'NONE',  ( -0.9659258262890682000, 0.2588190451025214600, -0.0000000000000000000 ) ) ;
#132 = FACE_OUTER_BOUND ( 'NONE', #95, .T. ) ;
#133 = DIRECTION ( 'NONE',  ( 0.0000000000000000000, 1.000000000000000000, 0.0000000000000000000 ) ) ;
#134 = CARTESIAN_POINT ( 'NONE',  ( 0.6250000038625032100, 2.473795714729885000, 0.0000000000000000000 ) ) ;
#135 = LENGTH_MEASURE_WITH_UNIT ( LENGTH_MEASURE( 0.02539999999999999900 ), #177 );
#136 = LINE ( 'NONE', #39, #229 ) ;
#137 = ORIENTED_EDGE ( 'NONE', *, *, #99, .F. ) ;
#138 = DIRECTION ( 'NONE',  ( 0.0000000000000000000, 0.0000000000000000000, -1.000000000000000000 ) ) ;
#139 = ORIENTED_EDGE ( 'NONE', *, *, #127, .F. ) ;
#140 = EDGE_CURVE ( 'NONE', #83, #269, #232, .T. ) ;
#141 = CARTESIAN_POINT ( 'NONE',  ( 3.862503206164547000E-009, 2.473795714729885000, -10.00000000000000000 ) ) ;
#142 = AXIS2_PLACEMENT_3D ( 'NONE', #211, #117, #87 ) ;
#143 = EDGE_LOOP ( 'NONE', ( #137, #253, #184, #277 ) ) ;
#144 = EDGE_CURVE ( 'NONE', #186, #83, #123, .T. ) ;
#145 = FACE_OUTER_BOUND ( 'NONE', #187, .T. ) ;
#146 = DIRECTION ( 'NONE',  ( -1.000000000000000000, -1.110223023867165500E-016, 0.0000000000000000000 ) ) ;
#147 = LINE ( 'NONE', #226, #252 ) ;
#148 =( NAMED_UNIT ( * ) SI_UNIT ( $, .STERADIAN. ) SOLID_ANGLE_UNIT ( ) );
#149 = DIRECTION ( 'NONE',  ( 1.000000000000000000, 0.0000000000000000000, 0.0000000000000000000 ) ) ;
#150 = DIRECTION ( 'NONE',  ( 1.110223023867165500E-016, -1.000000000000000000, 0.0000000000000000000 ) ) ;
#151 = AXIS2_PLACEMENT_3D ( 'NONE', #169, #105, #30 ) ;
#152 = PLANE ( 'NONE',  #151 ) ;
#153 = EDGE_LOOP ( 'NONE', ( #139, #60, #231, #36 ) ) ;
#154 = PLANE ( 'NONE',  #142 ) ;
#155 = ORIENTED_EDGE ( 'NONE', *, *, #193, .T. ) ;
#156 = ORIENTED_EDGE ( 'NONE', *, *, #262, .T. ) ;
#157 = ORIENTED_EDGE ( 'NONE', *, *, #96, .F. ) ;
#158 = VECTOR ( 'NONE', #7, 39.37007874015748100 ) ;
#159 = FILL_AREA_STYLE ('',( #240 ) ) ;
#160 = ORIENTED_EDGE ( 'NONE', *, *, #50, .F. ) ;
#161 = CARTESIAN_POINT ( 'NONE',  ( 0.6250000038625032100, 2.314633894425798000, -10.00000000000000000 ) ) ;
#162 = VECTOR ( 'NONE', #202, 39.37007874015748100 ) ;
#163 = DIRECTION ( 'NONE',  ( -1.000000000000000000, 0.0000000000000000000, -0.0000000000000000000 ) ) ;
#164 = VECTOR ( 'NONE', #180, 39.37007874015748100 ) ;
#165 = VECTOR ( 'NONE', #108, 39.37007874015748900 ) ;
#166 = ADVANCED_FACE ( 'NONE', ( #14 ), #152, .T. ) ;
#167 = PLANE ( 'NONE',  #272 ) ;
#168 = DIRECTION ( 'NONE',  ( 1.110223023867165500E-016, -1.000000000000000000, 0.0000000000000000000 ) ) ;
#169 = CARTESIAN_POINT ( 'NONE',  ( 0.03100000386250378900, 2.473795714729885000, -10.00000000000000000 ) ) ;
#170 = DIRECTION ( 'NONE',  ( -1.000000000000000000, -0.0000000000000000000, -0.0000000000000000000 ) ) ;
#171 = VECTOR ( 'NONE', #54, 39.37007874015748100 ) ;
#172 = ADVANCED_FACE ( 'NONE', ( #82 ), #247, .F. ) ;
#173 = FACE_OUTER_BOUND ( 'NONE', #143, .T. ) ;
#174 = DIMENSIONAL_EXPONENTS ( 1.000000000000000000, 0.0000000000000000000, 0.0000000000000000000, 0.0000000000000000000, 0.0000000000000000000, 0.0000000000000000000, 0.0000000000000000000 ) ;
#175 = AXIS2_PLACEMENT_3D ( 'NONE', #65, #57, #163 ) ;
#176 = CARTESIAN_POINT ( 'NONE',  ( 0.6250000038625032100, 2.314633894425798000, -10.00000000000000000 ) ) ;
#177 =( LENGTH_UNIT ( ) NAMED_UNIT ( * ) SI_UNIT ( $, .METRE. ) );
#178 = CARTESIAN_POINT ( 'NONE',  ( 3.862503206164547000E-009, 2.473795714729885000, -10.00000000000000000 ) ) ;
#179 = CARTESIAN_POINT ( 'NONE',  ( 3.862503206164547000E-009, 2.473795714729885000, 0.0000000000000000000 ) ) ;
#180 = DIRECTION ( 'NONE',  ( -0.0000000000000000000, 1.000000000000000000, -0.0000000000000000000 ) ) ;
#181 = VECTOR ( 'NONE', #18, 39.37007874015748100 ) ;
#182 = LINE ( 'NONE', #126, #73 ) ;
#183 = LINE ( 'NONE', #179, #273 ) ;
#184 = ORIENTED_EDGE ( 'NONE', *, *, #140, .T. ) ;
#185 = COLOUR_RGB ( '',0.6470588235294118000, 0.6196078431372549200, 0.5882352941176470800 ) ;
#186 = VERTEX_POINT ( 'NONE', #261 ) ;
#187 = EDGE_LOOP ( 'NONE', ( #206, #157, #66, #156 ) ) ;
#188 = APPLICATION_PROTOCOL_DEFINITION ( 'draft international standard', 'automotive_design', 1998, #43 ) ;
#189 = DIRECTION ( 'NONE',  ( 0.0000000000000000000, 0.0000000000000000000, 1.000000000000000000 ) ) ;
#190 = DIRECTION ( 'NONE',  ( 0.8660254037844379300, 0.5000000000000012200, 0.0000000000000000000 ) ) ;
#191 = MANIFOLD_SOLID_BREP ( 'Boss-Extrude1', #224 ) ;
#192 = VECTOR ( 'NONE', #102, 39.37007874015748100 ) ;
#193 = EDGE_CURVE ( 'NONE', #269, #113, #236, .T. ) ;
#194 = ORIENTED_EDGE ( 'NONE', *, *, #140, .F. ) ;
#195 = LINE ( 'NONE', #76, #120 ) ;
#196 = VERTEX_POINT ( 'NONE', #91 ) ;
#197 = PRESENTATION_STYLE_ASSIGNMENT (( #235 ) ) ;
#198 = CARTESIAN_POINT ( 'NONE',  ( 0.03100000386250312300, -1.959870872116168000E-009, -10.00000000000000000 ) ) ;
#199 = PRESENTATION_STYLE_ASSIGNMENT (( #243 ) ) ;
#200 = CARTESIAN_POINT ( 'NONE',  ( 3.862503206164547000E-009, 2.473795714729885000, 0.0000000000000000000 ) ) ;
#201 = DIRECTION ( 'NONE',  ( 0.0000000000000000000, 0.0000000000000000000, 1.000000000000000000 ) ) ;
#202 = DIRECTION ( 'NONE',  ( 0.0000000000000000000, 0.0000000000000000000, 1.000000000000000000 ) ) ;
#203 = ORIENTED_EDGE ( 'NONE', *, *, #42, .T. ) ;
#204 = LINE ( 'NONE', #26, #165 ) ;
#205 = LINE ( 'NONE', #161, #171 ) ;
#206 = ORIENTED_EDGE ( 'NONE', *, *, #61, .F. ) ;
#207 =( GEOMETRIC_REPRESENTATION_CONTEXT ( 3 ) GLOBAL_UNCERTAINTY_ASSIGNED_CONTEXT ( ( #255 ) ) GLOBAL_UNIT_ASSIGNED_CONTEXT ( ( #221, #90, #92 ) ) REPRESENTATION_CONTEXT ( 'NONE', 'WORKASPACE' ) );
#208 = DIRECTION ( 'NONE',  ( 0.0000000000000000000, -0.0000000000000000000, 1.000000000000000000 ) ) ;
#209 = APPLICATION_CONTEXT ( 'automotive_design' ) ;
#210 = DIRECTION ( 'NONE',  ( 0.0000000000000000000, 0.0000000000000000000, 1.000000000000000000 ) ) ;
#211 = CARTESIAN_POINT ( 'NONE',  ( 3.862503480811043600E-009, -1.959870966762681200E-009, -10.00000000000000000 ) ) ;
#212 = AXIS2_PLACEMENT_3D ( 'NONE', #176, #265, #47 ) ;
#213 = LINE ( 'NONE', #20, #51 ) ;
#214 = PRODUCT_DEFINITION ( 'UNKNOWN', '', #223, #45 ) ;
#215 = CARTESIAN_POINT ( 'NONE',  ( 3.862503206164547000E-009, 2.473795714729885000, -10.00000000000000000 ) ) ;
#216 = EDGE_LOOP ( 'NONE', ( #13, #48, #59, #100, #274, #220 ) ) ;
#217 = ADVANCED_FACE ( 'NONE', ( #119 ), #104, .T. ) ;
#218 = ORIENTED_EDGE ( 'NONE', *, *, #33, .F. ) ;
#219 = PLANE ( 'NONE',  #21 ) ;
#220 = ORIENTED_EDGE ( 'NONE', *, *, #127, .T. ) ;
#221 =( CONVERSION_BASED_UNIT ( 'INCH', #135 ) LENGTH_UNIT ( ) NAMED_UNIT ( #68 ) );
#222 = DIRECTION ( 'NONE',  ( 0.8660254037844379300, 0.5000000000000012200, 0.0000000000000000000 ) ) ;
#223 = PRODUCT_DEFINITION_FORMATION_WITH_SPECIFIED_SOURCE ( 'ANY', '', #89, .NOT_KNOWN. ) ;
#224 = CLOSED_SHELL ( 'NONE', ( #259, #166, #3, #217, #84, #107, #10, #172 ) ) ;
#225 = PRODUCT_RELATED_PRODUCT_CATEGORY ( 'part', '', ( #89 ) ) ;
#226 = CARTESIAN_POINT ( 'NONE',  ( 0.03100000386250378900, 2.473795714729885000, -10.00000000000000000 ) ) ;
#227 = EDGE_CURVE ( 'NONE', #130, #196, #239, .T. ) ;
#228 = DIRECTION ( 'NONE',  ( 1.000000000000000000, 3.053113322842609200E-015, 0.0000000000000000000 ) ) ;
#229 = VECTOR ( 'NONE', #190, 39.37007874015748900 ) ;
#230 = SURFACE_STYLE_FILL_AREA ( #125 ) ;
#231 = ORIENTED_EDGE ( 'NONE', *, *, #50, .T. ) ;
#232 = LINE ( 'NONE', #8, #233 ) ;
#233 = VECTOR ( 'NONE', #168, 39.37007874015748100 ) ;
#234 = CARTESIAN_POINT ( 'NONE',  ( 0.03100000386250378900, 2.473795714729885000, 0.0000000000000000000 ) ) ;
#235 = SURFACE_STYLE_USAGE ( .BOTH. , #244 ) ;
#236 = LINE ( 'NONE', #128, #181 ) ;
#237 = DIRECTION ( 'NONE',  ( -1.000000000000000000, 0.0000000000000000000, -0.0000000000000000000 ) ) ;
#238 = CARTESIAN_POINT ( 'NONE',  ( 0.6250000038625032100, 0.3429460579387679800, -10.00000000000000000 ) ) ;
#239 = LINE ( 'NONE', #55, #164 ) ;
#240 = FILL_AREA_STYLE_COLOUR ( '', #49 ) ;
#241 = VECTOR ( 'NONE', #201, 39.37007874015748100 ) ;
#242 = LENGTH_MEASURE_WITH_UNIT ( LENGTH_MEASURE( 0.02539999999999999900 ), #101 );
#243 = SURFACE_STYLE_USAGE ( .BOTH. , #85 ) ;
#244 = SURFACE_SIDE_STYLE ('',( #103 ) ) ;
#245 = AXIS2_PLACEMENT_3D ( 'NONE', #29, #71, #149 ) ;
#246 = PRODUCT_CONTEXT ( 'NONE', #43, 'mechanical' ) ;
#247 = PLANE ( 'NONE',  #106 ) ;
#248 = ORIENTED_EDGE ( 'NONE', *, *, #144, .F. ) ;
#249 = DIRECTION ( 'NONE',  ( 0.0000000000000000000, 0.0000000000000000000, 1.000000000000000000 ) ) ;
#250 = ORIENTED_EDGE ( 'NONE', *, *, #118, .T. ) ;
#251 = CARTESIAN_POINT ( 'NONE',  ( 3.862503480811043600E-009, -1.959870966762681200E-009, -10.00000000000000000 ) ) ;
#252 = VECTOR ( 'NONE', #94, 39.37007874015747400 ) ;
#253 = ORIENTED_EDGE ( 'NONE', *, *, #262, .F. ) ;
#254 = CARTESIAN_POINT ( 'NONE',  ( 0.6250000038625032100, 0.3429460579387679800, -10.00000000000000000 ) ) ;
#255 = UNCERTAINTY_MEASURE_WITH_UNIT (LENGTH_MEASURE( 1.000000000000000100E-005 ), #221, 'distance_accuracy_value', 'NONE');
#256 = EDGE_CURVE ( 'NONE', #113, #81, #4, .T. ) ;
#257 = VERTEX_POINT ( 'NONE', #234 ) ;
#258 = PRESENTATION_LAYER_ASSIGNMENT (  '', '', ( #263 ) ) ;
#259 = ADVANCED_FACE ( 'NONE', ( #145 ), #219, .T. ) ;
#260 =( NAMED_UNIT ( * ) PLANE_ANGLE_UNIT ( ) SI_UNIT ( $, .RADIAN. ) );
#261 = CARTESIAN_POINT ( 'NONE',  ( 0.03100000386250378900, 2.473795714729885000, -10.00000000000000000 ) ) ;
#262 = EDGE_CURVE ( 'NONE', #83, #15, #182, .T. ) ;
#263 = STYLED_ITEM ( 'NONE', ( #199 ), #276 ) ;
#264 = PRODUCT_DEFINITION_SHAPE ( 'NONE', 'NONE',  #214 ) ;
#265 = DIRECTION ( 'NONE',  ( 1.000000000000000000, 0.0000000000000000000, -0.0000000000000000000 ) ) ;
#266 = EDGE_LOOP ( 'NONE', ( #1, #17, #93, #250 ) ) ;
#267 = ORIENTED_EDGE ( 'NONE', *, *, #227, .F. ) ;
#268 =( NAMED_UNIT ( * ) PLANE_ANGLE_UNIT ( ) SI_UNIT ( $, .RADIAN. ) );
#269 = VERTEX_POINT ( 'NONE', #23 ) ;
#270 = PRESENTATION_LAYER_ASSIGNMENT (  '', '', ( #34 ) ) ;
#271 = UNCERTAINTY_MEASURE_WITH_UNIT (LENGTH_MEASURE( 1.000000000000000100E-005 ), #5, 'distance_accuracy_value', 'NONE');
#272 = AXIS2_PLACEMENT_3D ( 'NONE', #141, #146, #124 ) ;
#273 = VECTOR ( 'NONE', #150, 39.37007874015748100 ) ;
#274 = ORIENTED_EDGE ( 'NONE', *, *, #227, .T. ) ;
#275 = MECHANICAL_DESIGN_GEOMETRIC_PRESENTATION_REPRESENTATION (  '', ( #34 ), #79 ) ;
#276 = ADVANCED_BREP_SHAPE_REPRESENTATION ( '02379', ( #191, #245 ), #62 ) ;
#277 = ORIENTED_EDGE ( 'NONE', *, *, #12, .T. ) ;
ENDSEC;
END-ISO-10303-21;
